SolidWorks IGES file using analytic representation for surfaces         S      1
1H,,1H;,11H5621.SLDPRT,79H\\fileserver\adamhall\MARTINB\Eigene Dateien\3G      1
D-Daten div. Formate\IGS\5621.IGS,15HSolidWorks 2011,15HSolidWorks 2011,G      2
32,308,15,308,15,11H5621.SLDPRT,1.,2,2HMM,50,0.125,13H110516.111634,    G      3
1E-008,499990.,7Hmartinb,,11,0,13H110516.111634;                        G      4
     124       1       0       0       0                        00000000D      1
     124       0       0       1       0                               0D      2
     100       2       0       0       0               1        00020000D      3
     100       0       0       1       0                               0D      4
     100       3       0       0       0               1        00020000D      5
     100       0       0       1       0                               0D      6
     402       4       0       0       0                        00000000D      7
     402       0       0       1      16                2DSKETCH       1D      8
     314       5       0       0       0                        00000200D      9
     314       0       1       1       0                               0D     10
     502       6       0       0       0                        00010000D     11
     502       0       0       2       1                               0D     12
     124       8       0       0       0                        00000000D     13
     124       0       0       3       0                               0D     14
     100      11       0       0       0              13        00010000D     15
     100       0       0       1       0                               0D     16
     124      12       0       0       0                        00000000D     17
     124       0       0       3       0                               0D     18
     100      15       0       0       0              17        00010000D     19
     100       0       0       1       0                               0D     20
     124      16       0       0       0                        00000000D     21
     124       0       0       3       0                               0D     22
     100      19       0       0       0              21        00010000D     23
     100       0       0       1       0                               0D     24
     124      20       0       0       0                        00000000D     25
     124       0       0       3       0                               0D     26
     100      23       0       0       0              25        00010000D     27
     100       0       0       1       0                               0D     28
     124      24       0       0       0                        00000000D     29
     124       0       0       3       0                               0D     30
     100      27       0       0       0              29        00010000D     31
     100       0       0       1       0                               0D     32
     110      28       0       0       0                        01010000D     33
     110       0       0       1       0                               0D     34
     124      29       0       0       0                        00000000D     35
     124       0       0       3       0                               0D     36
     100      32       0       0       0              35        00010000D     37
     100       0       0       1       0                               0D     38
     124      33       0       0       0                        00000000D     39
     124       0       0       3       0                               0D     40
     100      36       0       0       0              39        00010000D     41
     100       0       0       1       0                               0D     42
     110      37       0       0       0                        01010000D     43
     110       0       0       1       0                               0D     44
     124      38       0       0       0                        00000000D     45
     124       0       0       3       0                               0D     46
     100      41       0       0       0              45        00010000D     47
     100       0       0       1       0                               0D     48
     110      42       0       0       0                        01010000D     49
     110       0       0       1       0                               0D     50
     110      43       0       0       0                        01010000D     51
     110       0       0       1       0                               0D     52
     504      44       0       0       0                        00010000D     53
     504       0       0       3       1                               0D     54
     110      47       0       0       0                        01010000D     55
     110       0       0       1       0                               0D     56
     110      48       0       0       0                        01010000D     57
     110       0       0       1       0                               0D     58
     120      49       0       0       0                        01010000D     59
     120       0      -9       1       0                               0D     60
     508      50       0       0       0                        00010000D     61
     508       0       0       1       1                               0D     62
     510      51       0       0       0                        00010000D     63
     510       0      -9       1       1                               0D     64
     110      52       0       0       0                        01010000D     65
     110       0       0       1       0                               0D     66
     110      53       0       0       0                        01010000D     67
     110       0       0       1       0                               0D     68
     120      54       0       0       0                        01010000D     69
     120       0      -9       1       0                               0D     70
     508      55       0       0       0                        00010000D     71
     508       0       0       1       1                               0D     72
     510      56       0       0       0                        00010000D     73
     510       0      -9       1       1                               0D     74
     116      57       0       0       0                        00010000D     75
     116       0       0       1       0                               0D     76
     123      58       0       0       0                        00010200D     77
     123       0       0       1       0                               0D     78
     123      59       0       0       0                        00010200D     79
     123       0       0       1       0                               0D     80
     190      60       0       0       0                        00010000D     81
     190       0      -9       1       1                               0D     82
     508      61       0       0       0                        00010000D     83
     508       0       0       1       1                               0D     84
     508      62       0       0       0                        00010000D     85
     508       0       0       1       1                               0D     86
     510      63       0       0       0                        00010000D     87
     510       0      -9       1       1                               0D     88
     116      64       0       0       0                        00010000D     89
     116       0       0       1       0                               0D     90
     123      65       0       0       0                        00010200D     91
     123       0       0       1       0                               0D     92
     123      66       0       0       0                        00010200D     93
     123       0       0       1       0                               0D     94
     190      67       0       0       0                        00010000D     95
     190       0      -9       1       1                               0D     96
     508      68       0       0       0                        00010000D     97
     508       0       0       1       1                               0D     98
     508      69       0       0       0                        00010000D     99
     508       0       0       1       1                               0D    100
     510      70       0       0       0                        00010000D    101
     510       0      -9       1       1                               0D    102
     110      71       0       0       0                        01010000D    103
     110       0       0       1       0                               0D    104
     110      72       0       0       0                        01010000D    105
     110       0       0       1       0                               0D    106
     120      73       0       0       0                        01010000D    107
     120       0      -9       1       0                               0D    108
     508      74       0       0       0                        00010000D    109
     508       0       0       1       1                               0D    110
     510      75       0       0       0                        00010000D    111
     510       0      -9       1       1                               0D    112
     110      76       0       0       0                        01010000D    113
     110       0       0       1       0                               0D    114
     110      77       0       0       0                        01010000D    115
     110       0       0       1       0                               0D    116
     120      78       0       0       0                        01010000D    117
     120       0      -9       1       0                               0D    118
     508      79       0       0       0                        00010000D    119
     508       0       0       1       1                               0D    120
     510      80       0       0       0                        00010000D    121
     510       0      -9       1       1                               0D    122
     514      81       0       0       0                        00010000D    123
     514       0       0       1       1                               0D    124
     186      82       0       0       0                        00000000D    125
     186       0       0       1       0                               0D    126
124,1.,0.,0.,0.,0.,0.,1.,0.,0.,-1.,0.,0.;                              1P      1
100,0.,0.,0.,5.737828536,1.754230228,5.737828536,1.754230228;          3P      2
100,0.,0.,0.,3.107990457,0.95020804,3.107990457,0.95020804;            5P      3
402,1,2,1,3,5;                                                         7P      4
314,9.80392156862745,9.80392156862745,9.80392156862745,;               9P      5
502,8,0.,1.7,-3.25,0.,1.7,-6.,0.,0.,-3.25,0.,0.,3.25,0.,0.,-6.,       11P      6
0.,1.7,3.25,0.,1.7,6.,0.,0.,6.;                                       11P      7
124,1.40271576953299E-014,1.,0.,0.,-6.12323399573677E-017,            13P      8
8.58915688636046E-031,1.,0.,1.,-1.40271576953299E-014,                13P      9
6.12323399573677E-017,0.;                                             13P     10
100,0.,0.,0.,6.,0.,-6.,0.;                                            15P     11
124,1.40271576953299E-014,1.,0.,-1.7,-6.12323399573677E-017,          17P     12
8.58915688636046E-031,1.,1.7,1.,-1.40271576953299E-014,               17P     13
6.12323399573677E-017,2.38461680820608E-014;                          17P     14
100,0.,0.,1.7,6.,1.7,-6.,1.7;                                         19P     15
124,6.12323399573677E-017,-1.,0.,0.,6.12323399573677E-017,            21P     16
3.74939945665464E-033,1.,0.,-1.,-6.12323399573677E-017,               21P     17
6.12323399573677E-017,0.;                                             21P     18
100,0.,0.,0.,3.25,0.,-3.25,0.;                                        23P     19
124,1.40271576953299E-014,1.,0.,-1.7,-6.12323399573677E-017,          25P     20
8.58915688636046E-031,1.,1.7,1.,-1.40271576953299E-014,               25P     21
6.12323399573677E-017,2.38461680820608E-014;                          25P     22
100,0.,0.,1.7,3.25,1.7,-3.25,1.7;                                     27P     23
124,6.12323399573677E-017,-1.,0.,1.7,6.12323399573677E-017,           29P     24
3.74939945665464E-033,1.,1.7,-1.,-6.12323399573677E-017,              29P     25
6.12323399573677E-017,1.04094977927525E-016;                          29P     26
100,0.,0.,1.7,6.,1.7,-6.,1.7;                                         31P     27
110,0.,1.7,3.25,0.,0.,3.25;                                           33P     28
124,6.12323399573677E-017,-1.,0.,0.,6.12323399573677E-017,            35P     29
3.74939945665464E-033,1.,0.,-1.,-6.12323399573677E-017,               35P     30
6.12323399573677E-017,0.;                                             35P     31
100,0.,0.,0.,6.,0.,-6.,0.;                                            37P     32
124,1.40271576953299E-014,1.,0.,0.,-6.12323399573677E-017,            39P     33
8.58915688636046E-031,1.,0.,1.,-1.40271576953299E-014,                39P     34
6.12323399573677E-017,0.;                                             39P     35
100,0.,0.,0.,3.25,0.,-3.25,0.;                                        41P     36
110,0.,1.7,6.,0.,0.,6.;                                               43P     37
124,6.12323399573677E-017,-1.,0.,1.7,6.12323399573677E-017,           45P     38
3.74939945665464E-033,1.,1.7,-1.,-6.12323399573677E-017,              45P     39
6.12323399573677E-017,1.04094977927525E-016;                          45P     40
100,0.,0.,1.7,3.25,1.7,-3.25,1.7;                                     47P     41
110,0.,1.7,-3.25,0.,0.,-3.25;                                         49P     42
110,0.,1.7,-6.,0.,0.,-6.;                                             51P     43
504,12,15,11,8,11,5,19,11,7,11,2,23,11,3,11,4,27,11,6,11,1,31,        53P     44
11,2,11,7,33,11,6,11,4,37,11,5,11,8,41,11,4,11,3,43,11,7,11,8,        53P     45
47,11,1,11,6,49,11,1,11,3,51,11,2,11,5;                               53P     46
110,0.,1.7,0.,0.,-998.3,0.;                                           55P     47
110,0.,1.7,-3.25,0.,0.,-3.25;                                         57P     48
120,55,57,0.,6.28318530717959;                                        59P     49
508,4,0,53,10,1,0,0,53,6,1,0,0,53,3,0,0,0,53,11,0,0;                  61P     50
510,59,1,1,61;                                                        63P     51
110,0.,1.7,0.,0.,-998.3,0.;                                           65P     52
110,0.,0.,-6.,0.,1.7,-6.;                                             67P     53
120,65,67,0.,6.28318530717959;                                        69P     54
508,4,0,53,2,0,0,0,53,9,1,0,0,53,1,1,0,0,53,12,0,0;                   71P     55
510,69,1,1,71;                                                        73P     56
116,0.,1.7,0.,;                                                       75P     57
123,0.,1.,0.;                                                         77P     58
123,-0.707106781,0.,0.707106781;                                      79P     59
190,75,77,79;                                                         81P     60
508,2,0,53,5,1,0,0,53,2,1,0;                                          83P     61
508,2,0,53,10,0,0,0,53,4,0,0;                                         85P     62
510,81,2,1,83,85;                                                     87P     63
116,0.,0.,0.,;                                                        89P     64
123,0.,1.,0.;                                                         91P     65
123,-0.707106781,0.,0.707106781;                                      93P     66
190,89,91,93;                                                         95P     67
508,2,0,53,7,0,0,0,53,1,0,0;                                          97P     68
508,2,0,53,3,1,0,0,53,8,1,0;                                          99P     69
510,95,2,1,97,99;                                                    101P     70
110,0.,1.7,0.,0.,-998.3,0.;                                          103P     71
110,0.,0.,-6.,0.,1.7,-6.;                                            105P     72
120,103,105,0.,6.28318530717959;                                     107P     73
508,4,0,53,9,0,0,0,53,5,0,0,0,53,12,1,0,0,53,7,1,0;                  109P     74
510,107,1,1,109;                                                     111P     75
110,0.,1.7,0.,0.,-998.3,0.;                                          113P     76
110,0.,1.7,-3.25,0.,0.,-3.25;                                        115P     77
120,113,115,0.,6.28318530717959;                                     117P     78
508,4,0,53,6,0,0,0,53,4,1,0,0,53,11,1,0,0,53,8,0,0;                  119P     79
510,117,1,1,119;                                                     121P     80
514,6,63,1,73,1,87,1,101,1,111,1,121,1;                              123P     81
186,123,1,0;                                                         125P     82
S      1G      4D    126P     82                                        T      1
